Lirik dan Chord Lagu La Cienega - NIKI & Joji

Lirik dan Chord Lagu La Cienega - NIKI & Joji

Terbaiknews - JAKARTAKOMPAS.com - "La Cienega" merupakan singel milik penyanyi 88rising asal IndonesiaNiki...

JAKARTA, KOMPAS.com - "La Cienega" merupakan singel milik penyanyi 88rising asal Indonesia, Niki Zefanya, yang dirilis bersama Joji pada Juli 2018.

Lagu ini dimuat dalam debut album para penyanyi 88rising bertajukHead in the Clouds,garapan berbagai produser musik internasional di bawah naungan label 88rising dan 12Tone.

Lirik dan Chord Lagu Spell dari NIKI

Berikut ini lirik dan chordlagu "La Cienega" dari NIKI.

[Verse] (NIKI)
A F D
Empty bottles on the floor
A F D
Party's over, thank the lord
A C
Watching these four walls 'round me shrinking
D A F D
It's so quiet, I can hear myself think when

[Chorus] (NIKI)
Bm
Glitz and glamour on cam
E
Singin' in La La Land
A D C Cm
Accidentally made a name
Bm
Pawn on every chess board
E
Used 'til they get bored
A
Smile when they yell, "Checkmate"

[Solo]

D|-------------------------------------------------------------|
A|-------------------------------------------------------------|
F|-------------------------------------------------------------| x2
C|-------------------------------------------------------------|
G|--------0--2------/4----0--2--0--------------0-------0---/4--|
D|--0--2---------------------------2------0h2-----0h2----------|

D|--------------|
A|--------------|
F|--------------|
C|--------------|
G|--------0--2--|
D|--0--2--------|

[Verse] (Joji)
A F D
Lately I've been on my own (yeah, on my own, yeah yeah)
A F D
I knew you havin' fun with me (with me, with me, oh no)
A F D
When I'm nearby, you'll know like, hold on
A F D
And when will I see you? Yeah, yeah like, when will I see you? (Can you hear me loud and clear?)

[Chorus (NIKI)]
Bm
Glitz and glamour on cam
E
Singin' in La La Land
A D C Cm
Accidentally made a name
Bm
Pawn on every chessboard
E
Used 'til they get bored
A
Smile when they yell, "Checkmate"

COVID-19 Detais Indonesia